Iron Maiden - 22 Acacia Avenue (var.20) Notas de guitarra (tab) descargar gratis o reproducir online

Notas de guitarra (tab) para 22 Acacia Avenue (var.20) de Iron Maiden descargar gratis, leer o reproducir online. Info de archivo: .txt, 19.64 kb, 430 visualizaciones y 0 descargas.

Descargar notas de guitarra (tab) "22 Acacia Avenue (var.20)" (Iron Maiden)

Iron Maiden Nombre de grupo
22 Acacia Avenue Nombre de canción
Notas de guitarra (tabs) Tipo de nota
19.64 kb Tamaño de archivo
.TXT Tipo de archivo
430 visualizaciones
0 descargas
 
Eres un robot?

22 Acacia Avenue (var.20) notas de guitarra (tab) leer y reproducir online

                    Band:  (iron maiden)
Album: (live after death)
Song:  (22 acacia avenue)

Copyright (c)  (EMI) (1985)

Transcribed By: (chris garr)
Email:          (acaciaavenue2003@yahoo.co.uk)


.  - palm mute           /  - slide up to
\  - slide down to       ~  - vibrato
h  - hammer on           b  - Bend
p  - pull off            Suffixes for bend
t  - tap                 f  - full bend    h - half bend
ph - pinched harmonic    q  - quarter bend t - tap bend
*  - see comment         ^  - Hold bend    r release bend
x  - Stuccatto           ~  - vibrato bend
,  - slight palm mute    () - ghost note, sustained note
"  - tremolo note        <> - Trill

Tuning E A D G B E

(number 22,number 22,number 22, acacia avenue) bruce dickinson.

adrian smith
|-------------------------------------------------------------------|
|-------------------------------------------------------------------|
|-------------------------------------------------------------------|
|-9---------9---------9---------9----------9----------9---------9---|
|-7---------7---------7---------7----------7----------7---------7---|
|----0-0-0-----0-0-0-----0-0-0-----0-0-0------0-0-0------0-0-0------|

|-------------------------------------------------------------------|
|-------------------------------------------------------------------|
|-------------------------------------------------------------------|
|---------9-----------9----------7--9---------9---------9-----------|
|---------7-----------7----------5--7---------7---------7-----------|
|-0-0-0-------0-0-0------0-0-0---------0-0-0-----0-0-0-----0-0-0----|

|-------------------------------------------------------------------|
|-------------------------------------------------------------------|
|-------------------------------------------------------------------|
|-9--------9-----------7---------7---------7----------7-------------|
|-7--------7-----------5---------5---------5----------5-------------|
|---0-0-0-----0-0-0-------0-0-0-----0-0-0-----0-0-0-------0-0-0-----|


|-------------------------------------------------------------------|
|-------------------------------------------------------------------|
|---------7-7-7-----------------------------------------------------|
|--7--7---7-7-7---9----------9----------9---------9-----------------|
|--5--5---5-5-5---7----------7----------7---------7-----------------|
|-----------------0---0-0-0-----0-0-0------0-0-0-----0-0-0----------|

|-------------------------------------------------------------------|
|-------------------------------------------------------------------|
|-------------------------------------------------------7-7-7-7-----|
|--7---------7----------7-----------7-----------7-7-7---7-7-7-7-----|
|--5---------5----------5-----------5-----------5-5-5---5-5-5-5-----|
|-----0-0-0-----0-0-0-------0-0-0------0-0-0------------------------|

|-------------------------------------------------------------------|
|-------------------------------------------------------------------|
|-------------------------------------------------------------------|
|-5---------5----------5------------5---7----9-9-9-----9b-----------|
|-3--3-3-3--3--3-3-3---3---3-3-3----3---5----7-7-7-----7b-----------|
|--------------------------------------------0-0-0------------------|

|-------------------------------------------------------------------|
|-------------------------------------------------------------------|
|-------------------------------------------------------------------|
|----------5----7-----7---9------9----7----9-----9------------------|
|--7-6-5---3----5-----5---7--7-7-7----5----7-7-7-7------------------|
|-------------------------------------------------------------------|

adrian smith fill 1
|------------------0h3p0--------------------------------------------|
|--------------0----------------------------------------------------|
|-----------0-------------------------------------------------------|
|--------2----------------------------------------------------------|
|-----2-------------------------------------------------------------|
|--0----------------------------------------------------------------|

adrian smith fill 2
|-------------------------------------------------------------------|
|-------------------------------------------------------------------|
|-----0-----0-------0-----------------------------------------------|
|--5-----4-------2-------0--------------5---------------------------|
|------------------------------7-6-5----3---------------------------|
|-------------------------------------------------------------------|
repeat all this 2x
then this below.

adrian smith
|-------------------------------------------------------------------|
|-------------------------------------------------------------------|
|----------------4v-------------------------------------------------|
|----------------5v----------------------7p5------------------------|
|----------------------------5-7--------------5---------------------|
|-/0-0-0-0-0------------0-0-------0-0-0-----------------------------|

|-------------------------------------------------------------------|
|-------------------------------------------------------------------|
|--------------4v---------------------------------------------------|
|--------------5v----------------------7-7-7-7p5--------------------|
|------------------------5-7----------------------5-----------------|
|--0-0-0-0-0--------0-0--------0-0-0--------------------------------|
do this until it changes to this below.

adrian smith
|-------------------------------------------------------------------|
|-------------------------------------------------------------------|
|-------------------------------------------------------------------|
|--------5-5-5-4-4-4-5v---------5-5-5-4-4-4-5p4---------------------|
|-3-3-3------------------3-3-3-------------------5v-----------------|
|-------------------------------------------------------------------|
do this riff after the bit above 2-3 times.

adrian smith
|------2------------------------------------------------------------|
|------3---------3--------------------------------------------------|
|------2------------4-----------------------------------------------|
|-5---------4-----------4-----5----5----7---------------------------|
|-3---------2-----------------3----3----5---------------------------|
|-------------------------------------------------------------------|

|-------------------------------------------------------------------|
|-------------------------------------------------------------------|
|-------------------------------------------------------------------|
|-------------------------------------------------------------------|
|-5-7------------------5-7------------------------------------------|
|------0-0-0-0-0-0-0---------0-0-0-0-0-0-0--------------------------|

|-----2-------------------------------------------------------------|
|-----3--------3----------------------------------------------------|
|-----2-----------4-------------------------------------------------|
|-5--------4---------4-----5---5----7-------------------------------|
|-3--------2---------------3---3----5-------------------------------|
|-------------------------------------------------------------------|

|-------------------------------------------------------------------|
|-------------------------------------------------------------------|
|---------------------5-4------4------------------------------------|
|---------------------------7------7-5-7-5--4-5-4p0-----------------|
|-2-2-2-2-2-2-2-----------------------------------------------------|
|-------------------------------------------------------------------|
pm......pm.....

adrian smith
|-------------------------------------------------------------------|
|-------------------------------------------------------------------|
|-------------------------------------------------------------------|
|-7----9-------------------7----9------------------7----9-----------|
|-5----7-------------------5----7------------------5----7-----------|
|-----------0-0-0-0-0-0--------------0-0-0-0-0-0------------0-0-0-0-|

|-------------------------------------------------------------------|
|-------------------------------------------------------------------|
|--12--12--12---11---11----11----12--12--12----11--11--11-----------|
|--12--12--12---12---12----12----12--12--12----12--12--12-----------|
|-------------------------------------------------------------------|
|-------------------------------------------------------------------|

|-------------------------------------------------------------------|
|-------------------------------------------------------------------|
|-------------------------------------------------------------------|
|-7---9----------7---9----------7--9--------------------------------|
|-5---7----------5---7----------5--7--------------------------------|
|---------\15/------------\15/----------\15/------------------------|
do this the 2nd time but when you do the d and the e
slide on the lo e string up to the 15 and back.

adrian smith
|-------------------------------------------------------------------|
|-------------------------------------------------------------------|
|-------------------------------------------------------------------|
|--2------3-2-------------------------------------------------------|
|--2-----------3-2--------------------------------------------------|
|--0-----------------3-2--------------------------------------------|

adrian smith chords for solo
|-------------------------------------------------------------------|
|-------------------------------------------------------------------|
|-------------------------------------------------------------------|
|--2-------------7---7-7-7--5-5-5-5---7-----5-------3-2-------------|
|--2-------------5---5-5-5--3-3-3-3---5-----3------------3-2--------|
|--0----0-0-0-------------------------------------------------3-2---|

|-----0-------------------------------------------------------------|
|-----0-------------------------------------------------------------|
|-------------------------------------------------------------------|
|-------------------------------------------------------------------|
|-2-----------------------------------------------------------------|
|-0-----------------------------------------------------------------|
repeat these chords until the 1st solo is finished.

adrian smith fill 3
|-------------------------------------------------------------------|
|-------------------------------------------------------------------|
|-------------------------------------------------------------------|
|-------------------------------------------------------------------|
|-5h7--7-7-7-7-7-7-7-7----5-5-5-5---7~~~~---------------------------|
|-------------------------------------------------------------------|

|-------------------------------------------------------------------|
|-------------------------------------------------------------------|
|-------------------4v----------------------------------------------|
|-------------------5v----------------------7-7-7-7p5---------------|
|------5-7---------------------5-7---------------------5------------|
|-0-0-------0-0-0---------0-0-------0-0-0---------------------------|


|-------------------------------------------------------------------|
|-------------------------------------------------------------------|
|-------------------4v----------------------------------------------|
|-------------------5v------------------7-7-7-7p5-------------------|
|------5-7---------------------5-7------------------5---------------|
|-0-0-------0-0-0---------0-0-------0-------------------------------|
repeat this riff for 4 bars.

adrian smith solo
|-------------------------------------------------------------------|
|-------------15b-15b-15b-r-15--12-15-r-15b-------------------------|
|-------------------------------------------------------------------|
|-------5v----------------------------------------------------------|
|-7v----------------------------------------------------------------|
|-------------------------------------------------------------------|

|-------12h14h15--12h4--------12------------------------------------|
|--15b-------------------15--------12h15----------12----------------|
|------------------------------------------14b---------15p14p12-----|
|-------------------------------------------------------------------|
|-------------------------------------------------------------------|
|-------------------------------------------------------------------|


|-------------------------------------------------------------------|
|-----12------------------------------------------------------------|
|-----12----------------------------------------------12h14v--------|
|-14-------14-12-------------------------------12h14----------------|
|-----------------14-13-12\10v---12-10-12/14------------------------|
|-------------------------------------------------------------------|

|-------------------------------------------------------------------|
|--12h13------12------------------12h15p12--------12h15p12----------|
|---------14-------14p12v----14b-------------14b-------------14b----|
|-------------------------------------------------------------------|
|-------------------------------------------------------------------|
|-------------------------------------------------------------------|

|-------------------------------------------------------------------|
|-12h15p12-------12h15p12-----------12-15v--------------------------|
|-----------14b-------------14b-------------------------------------|
|-------------------------------------------------------------------|
|-------------------------------------------------------------------|
|-------------------------------------------------------------------|

|-------15-12--------------14-12---------------15-12----------------|
|--15b---------15p12--15b---------15p12--15b-----------15p12--------|
|-------------------------------------------------------------------|
|-------------------------------------------------------------------|
|-------------------------------------------------------------------|
|-------------------------------------------------------------------|

|--------17-12-----------------14-12----------------14-12-----------|
|--15b-----------15p12---15b-----------15p12---15b---------15p12----|
|-------------------------------------------------------------------|
|-------------------------------------------------------------------|
|-------------------------------------------------------------------|
|-------------------------------------------------------------------|

|-------------17-17-17-17-17p15------15p14---------14p12------------|
|--15b-15b-----------------------17---------15------------13--------|
|-------------------------------------------------------------------|
|-------------------------------------------------------------------|
|-------------------------------------------------------------------|
|-------------------------------------------------------------------|

|-12p10--------10p8---------8p7-------------------------------------|
|--------12----------10----------8v---------------------------------|
|-------------------------------------------------------------------|
|-------------------------------------------------------------------|
|-------------------------------------------------------------------|
|-------------------------------------------------------------------|

|-------------------------------------------------------------------|
|-15b---15----------------------------------------------------------|
|-14b---14--12-------12h14p12~~~~~----------------------------------|
|----------------14-------------------------------------------------|
|-------------------------------------------------------------------|
|-------------------------------------------------------------------|

|--0-0-0-0-0-0-0---0-0-0-0-0-0-0-0-0-0--0-0--0-0-0-0-0-0------------|
|--3h5-5-5-5-5-5---3h5--5-5-5-5-5-5-5---3h5--5-5-5-5-5-5------------|
|-------------------------------------------------------------------|
|-------------------------------------------------------------------|
|-------------------------------------------------------------------|
|-------------------------------------------------------------------|

|-0-0--0-0-0-0-0-0----0-0-0---0--0--0--0-0-0---0--0--0--------------|
|-3h5--5-5-5-5-5-5----8-8-8--10-10-10--8-8-8--10-10-10--------------|
|-------------------------------------------------------------------|
|-------------------------------------------------------------------|
|-------------------------------------------------------------------|
|-------------------------------------------------------------------|

|--0-0-0-0-0-0-0-0-0-0-0-0------------------------------------------|
|--8-8-8-7-7-7-5-5-5-3-3-3-----3h5p3h5p3h5p3------------------------|
|------------------------------------------------2b--2b-------------|
|-------------------------------------------------------------------|
|-------------------------------------------------------------------|
|-------------------------------------------------------------------|

|-------------------------------------------------------------------|
|------------------------------------------------------------12-15-12|
|--12--12---14--14---12---14b-12h14p12---12-12--14-14---14b---------|
|--12--12---14--14---12------------------12-12--14-14---------------|
|-------------------------------------------------------------------|
|-------------------------------------------------------------------|

|-------------------------------------------------------------------|
|-15b----------------------15b--12h15-------------------------------|
|--------12--12---14--14---------------14-12------------------------|
|--------12--12---14--14-----------------------14-------------------|
|-------------------------------------------------------------------|
|-------------------------------------------------------------------|

|---------------15b-15-14h15p14--12h14h15--12h4------12-------------|
|-15b-r-15-12------------------------------------15------12h15p12---|
|-------------------------------------------------------------------|
|-------------------------------------------------------------------|
|-------------------------------------------------------------------|
|-------------------------------------------------------------------|

|-------------------------------------------------------------------|
|-----12------------------------------------------------------------|
|-15------15p14-15p14--12h14p12------12-----------------------------|
|--------------------------------14------14p12-14p12------12--------|
|-----------------------------------------------------14------14-12-|
|-------------------------------------------------------------------|

|---------------------------------------12--------------------------|
|----------------------------------15b------15p12-------------------|
|------------------12-14b-r-14-12-------------------14b-r-14--12----|
|-----------12h14-------------------------------------------------14|
|-10-12/14----------------------------------------------------------|
|-------------------------------------------------------------------|

delay pedal on
|-------------------------------------------------------------------|
|-------------------------------------------------------------------|
|-------------------------------------------------------------------|
|----------------7---------9----------------------------------------|
|----------------5---------7----------------------------------------|
|-------------------------------------------------------------------|                    

Comentarios para notas de guitarra (tab) — 22 Acacia Avenue (var.20) (Iron Maiden)

Otras notas para 22 Acacia Avenue (var.20) de Iron Maiden:

Las últimas notas vistas de Iron Maiden: