Iron Maiden - Aces High (var.5) Notas de guitarra (tab) descargar gratis o reproducir online

Notas de guitarra (tab) para Aces High (var.5) de Iron Maiden descargar gratis, leer o reproducir online. Info de archivo: .txt, 2.22 kb, 369 visualizaciones y 0 descargas.

Descargar notas de guitarra (tab) "Aces High (var.5)" (Iron Maiden)

Iron Maiden Nombre de grupo
Aces High Nombre de canción
Notas de guitarra (tabs) Tipo de nota
2.22 kb Tamaño de archivo
.TXT Tipo de archivo
369 visualizaciones
0 descargas
 
Eres un robot?

Aces High (var.5) notas de guitarra (tab) leer y reproducir online

                    



i tabbed some of the solos rythim but i also tabbed some of the solo and im a 100% sure its right!



standard tuning.

|----------------------------------------------------------------------------------------------------------------|

|-------------------------15p12p0-15p14p0-15p12p0-15p14p0-15p12p0-15p14p0-15p12p0-15p14p0-15p12p0-15p14p0-0-0----|

|---------5-7---------5-7----------------------------------------------------------------------------------------|

|-7-3-5-7-5-7-7-3-5-7-5-7----------------------------------------------------------------------------------------|

|-7-3-5-7-3-5-7-3-5-7-3-5----------------------------------------------------------------------------------------|

|-5-1-3-5-----5-1-3-5--------------------------------------------------------------------------------------------|



|----------------------------------------------------------------------------------------------------------------|

|-12p0-10p0-8p0-10p0-8p0-7p0-8p0-7p0-5p0-7p0-8p0-7p0----------7-10-9p7---9p7-------7-----------------------------|

|----------------------------------------------------6------7----------9-----9bfull--10p9p7---9p7----------------|

|------------------------------------------------------9--9---------------------------------9-----9-7------------|

|-----------------------------------------------------------------------------------------------------97--5-----|

|----------------------------------------------------------------------------------------------------------------|



|----------------------------------------17bfull-----------------------------------------------------------------|

|------------------------15-17-17bfull-15------------------------------------------------------------------------|

|-10-9p7-9-------------16----------------------------------------------------------------------------------------|

|----------9-8-7-------------------------------------------------------------------------------------------------|

|----------------9-8-7-------------------------------------------------------------------------------------------|

|----------------------------------------------------------------------------------------------------------------|



                    

Comentarios para notas de guitarra (tab) — Aces High (var.5) (Iron Maiden)

Otras notas para Aces High (var.5) de Iron Maiden:

Las últimas notas vistas de Iron Maiden: