Iron Maiden - Aces High (var.1) Notas de bajo guitarra (tab) descargar gratis o reproducir online

Notas de bajo guitarra (tab) para Aces High (var.1) de Iron Maiden descargar gratis, leer o reproducir online. Info de archivo: .txt, 4.05 kb, 307 visualizaciones y 0 descargas.

Descargar notas de bajo guitarra (tab) "Aces High (var.1)" (Iron Maiden)

Iron Maiden Nombre de grupo
Aces High Nombre de canción
Notas de bajo guitarra (tabs) Tipo de nota
4.05 kb Tamaño de archivo
.TXT Tipo de archivo
307 visualizaciones
0 descargas
 
Eres un robot?

Aces High (var.1) notas de bajo guitarra (tab) leer y reproducir online

                    Artist:	Iron Maiden
Title:	Aces High






I made this tab as best as i could. 
If you see a mistake or have any questions or there are any other 
Iron Maiden songs you want me to tab for you please e-mail me at brucklepea@hotmail.com. 
You can also e-mail if you want to know what part of the song sounds like 
on bass and i'll send you the sound file of me playing it.
Thanks.

Band-   Iron Maiden
Album-  Powerslave
Song-   Aces High

> = slide to
~ = let ring
| = pause
h = hammer on

Intro 1
G|-11~-------|-7~-------|--
D|-11~-------|-7~-------|--
A|--9~-9-9-9-|-5~-5-5-5-|--  x3
E|-----------|----------|--

Intro 2
G|-11~-------|-7~-------|--
D|-11~-------|-7~-------|--
A|--9~-9-9-9-|-5~-5-5-7-|--  
E|-----------|----------|--

Break 1
G|----------------------------------
D|-7-7-7-7-7-7-7-7--3-3-3-3-5-5-5-5-
A|---------------------------------- x4
E|----------------------------------

Verse 1
G|-----------------------------------------
D|---------------------------------4-------
A|-5-7-7-7-7-5-7-7-7-7-5-7-7-7-7-5---5----- x4
E|-----------------------------------------

Verse 2
G|---------------------------------4-------
D|-5-7-7-7-7-5-7-7-7-7-5-7-7-7-7-5---5-----
A|----------------------------------------- x4
E|-----------------------------------------

Pre chorus
G|-------------------------------5-4-------------
D|-----------5-----------------------7-5-7-5-4-0-
A|-5-7-7-7-7---7-7-7-7-5-7-7-7-7-----------------
E|-----------------------------------------------

Pre chorus (continued)
G|-------------------------------5-4-------|--
D|-----------5-----------------------7-5-7-|--
A|-5-7-7-7-7---7-7-7-7-5-7-7-7-7-----------|-- x2
E|-----------------------------------------|--

Chorus 1
G|-----------------------------------
D|-----------------------------------
A|-7-7-7-7-7-7-7-7--3-3-3-3-5-5-5-5-- x4
E|-----------------------------------

Chorus 2
G|---------------------------2-------
D|-5-5-5-5-5-5-5-5-1-1-1-1-3---3-----
A|----------------------------------- x4
E|-----------------------------------

Bridge
G|-------------------7-7----------------------------
D|-7-7-10-7-7-10-7-5-----7-7-10-7-7-10-7-5-7-7------
A|-------------------------------------------------- 
E|--------------------------------------------------

G|-------------------7-7----------------------|--
D|-7-7-10-7-7-10-7-5-----7-7-10-7-7-10-7-5-7--|--
A|--------------------------------------------|-- x2
E|--------------------------------------------|--

Solo 1
G|---------------------------------------------------------------------------
D|-7-7-7-7-7-7-7-7-3-3-3-3-5-5-5-5-7-7-7-7-7-7-7-7-10-10-10-10-12-12-12-12---
A|--------------------------------------------------------------------------- x2
E|---------------------------------------------------------------------------

Solo 2
G|---------------------------------------------------------------------------
D|-9-9-9-9-9-9-9-9-5-5-5-5-7-7-7-7-9-9-9-9-9-9-9-9-12-12-12-12-14-14-14-14---
A|--------------------------------------------------------------------------- x2
E|---------------------------------------------------------------------------

Bridge x2

Verse 1 x4

Verse 2 x4

Pre chorus x2
 
Chorus 1 x4

Chorus 2 x4

Outro
G|----------------------------------
D|-7-7-7-7-7-7-7-7--3-3-3-3-5-5-5-5-
A|---------------------------------- x3
E|----------------------------------

G|--------------------------------------
D|-7-7-7-7-7-7-7-7--3~-5~-5-7-7-7-7-7-7-
A|--------------------------------------
E|--------------------------------------

Please rate this tab and put your comments. Thankyou.                    

Comentarios para notas de bajo guitarra (tab) — Aces High (var.1) (Iron Maiden)

Otras notas para Aces High (var.1) de Iron Maiden:

Las últimas notas vistas de Iron Maiden: