Iron Maiden - Afraid To Shoot Strangers (var.10) Notas de guitarra (tab) descargar gratis o reproducir online

Notas de guitarra (tab) para Afraid To Shoot Strangers (var.10) de Iron Maiden descargar gratis, leer o reproducir online. Info de archivo: .txt, 5.44 kb, 377 visualizaciones y 0 descargas.

Descargar notas de guitarra (tab) "Afraid To Shoot Strangers (var.10)" (Iron Maiden)

Iron Maiden Nombre de grupo
Afraid To Shoot Strangers Nombre de canción
Notas de guitarra (tabs) Tipo de nota
5.44 kb Tamaño de archivo
.TXT Tipo de archivo
377 visualizaciones
0 descargas
 
Eres un robot?

Afraid To Shoot Strangers (var.10) notas de guitarra (tab) leer y reproducir online

                    I made this tab as best as i could. 

If you see a mistake or have any questions or there are any other 

Iron Maiden songs you want me to tab for you please e-mail me at brucklepea@hotmail.com. 

You can also e-mail if you want to know what part of the song sounds like 

on bass and i'll send you the sound file of me playing it.

Thanks.



Band-   Iron Maiden

Album-  Fear of the dark

Song-   Afraid to shoot strangers



> = slide to

~ = let ring

| = pause

h = hammer on



Intro 1

G|---9---9-----9---9-----9---9-----9---9------12----12-------12----12------

D|-----9---9-----9---9-----9---9-----9---9-------12----12-------12----12---

A|-7---------7---------7---------7---------10-------------10---------------

E|-------------------------------------------------------------------------



Intro 1 (continued)

G|----12----12-------12----12------6---6-----6---6-----6---6-----6---6-----

D|-------12----12-------12----12-----6---6-----6---6-----6---6-----6---6---

A|-10-------------10-------------4---------4---------4---------4-----------

E|-------------------------------------------------------------------------



Intro 1 (continued)

G|---4---4-----4---4-----4---4-----4---4-----9---9-----9---9-----9---9-----9---9----

D|-----4---4-----4---4-----4---4-----4---4-----9---9-----9---9-----9---9-----9---9--

A|-2---------2---------2---------2---------7---------7---------7---------7----------

E|----------------------------------------------------------------------------------



Intro 1 (continued)

G|----12----12-------12----12-------12----12-------12----12------

D|-------12----12-------12----12-------12----12-------12----12---

A|-10-------------10-------------10-------------10---------------

E|---------------------------------------------------------------



Intro 1 (continued)

G|---6---6-----6---6-----6---6-----6---6-----4---4-----4---4--------------------------

D|-----6---6-----6---6-----6---6-----6---6-----4---4-----4---4---6---6-----6---6------

A|-4---------4---------4---------4---------2---------2-------------6---6-----6---6----

E|-------------------------------------------------------------4---------4------------



Intro 2

G|---9---9-----9---9-----9---9-----9---9-----6---6-----6---6-----6---6-----6---6------

D|-----9---9-----9---9-----9---9-----9---9-----6---6-----6---6-----6---6-----6---6----

A|-7---------7---------7---------7---------4---------4---------4---------4------------

E|------------------------------------------------------------------------------------



Intro 2 (continued)

G|---7---7-----7---7-----7---7-----7---7-----4---4-----4---4-----4---4-----4---4-----

D|-----7---7-----7---7-----7---7-----7---7-----4---4-----4---4-----4---4-----4---4---

A|-5---------5---------5---------5---------2---------2---------2---------2----------- x2

E|-----------------------------------------------------------------------------------



Intro 3

G|---5---5-----5---5-----6---6-----3---3-----5---5-----5---5-----5---5-----5---5------

D|-----5---5-----5---5-----6---6-----3---3-----5---5-----5---5-----5---5-----5---5----

A|-3---------3---------4---------1---------3---------3---------3---------3------------ x2

E|------------------------------------------------------------------------------------



Intro 2 x2



Intro 3 x3



Break 1

G|-------|-------|-------|---------------|-------|-------|------------

D|-------|-------|-------|---------------|-------|-------|------------

A|-9-9-9-|-5-5-5-|-7-7-7-|-3-3-5-5-9-9-9-|-5-5-5-|-7-7-7-|-2-2-4-4---- x5

E|-------|-------|-------|---------------|-------|-------|------------



Break 2

G|--------------------------------------------------------------------

D|--------------------------------------------------------------------

A|-7-7-7-7-7-7-7-7-7-7-7-7-5-5-3-3-7-7-7-7-7-7-7-7-7-7-7-7-5-5-3-3----

E|--------------------------------------------------------------------



Break 2 (continued)

G|--------------------------------------------------------------------

D|--------------------------------------------------------------------

A|-5-5-5-5-5-5-5-5-5-5-5-5-0-0-2-2-7-7-7-7-7-7-7-7-7-7-7-7-5-5-3-3---- x2

E|--------------------------------------------------------------------



Break 3

G|------------------------------------------------------------------

D|------------------------------------------------------------------

A|-7-7-7-7-7-7-7-7-3-3-3-3-5-5-5-5-7-7-7-7-7-7-7-7-7-7-7-7-7-7-7-7-- x2

E|------------------------------------------------------------------



Break 4

G|------------------------------------------------------------------

D|-7-7-7-7-7-7-7-7-3-3-3-3-5-5-5-5-7-7-7-7-7-7-7-7-7-7-7-7-7-7-7-7--

A|------------------------------------------------------------------

E|------------------------------------------------------------------



Break 3



Chorus

G|-----------------------------------------------------------------------------------

D|-------------------7-5-5-5-------------------7-5-5-5-------------------7-5-5-5-----

A|-5-7-7-7-7-7-7-5-7---------5-7-7-7-7-7-7-5-7---------3-5-5-5-5-5-5-3-5------------- x2

E|-----------------------------------------------------------------------------------



Break 2



Break 1 x4



Outro

G|-------|-------|-------|-------------------

D|-------|-------|-------|-------------------

A|-9-9-9-|-5-5-5-|-7-7-7-|-2-2-2-4-4-4-9~----

E|-------|-------|-------|-------------------



Please rate this tab and put your comments. Thankyou.                    

Comentarios para notas de guitarra (tab) — Afraid To Shoot Strangers (var.10) (Iron Maiden)

Otras notas para Afraid To Shoot Strangers (var.10) de Iron Maiden:

Las últimas notas vistas de Iron Maiden: