Iron Maiden - The Fear Of The Dark (var.46) Notas de guitarra (tab) descargar gratis o reproducir online

Notas de guitarra (tab) para The Fear Of The Dark (var.46) de Iron Maiden descargar gratis, leer o reproducir online. Info de archivo: .txt, 1.99 kb, 394 visualizaciones y 0 descargas.

Descargar notas de guitarra (tab) "The Fear Of The Dark (var.46)" (Iron Maiden)

Iron Maiden Nombre de grupo
The Fear Of The Dark Nombre de canción
Notas de guitarra (tabs) Tipo de nota
1.99 kb Tamaño de archivo
.TXT Tipo de archivo
394 visualizaciones
0 descargas
 
Eres un robot?

The Fear Of The Dark (var.46) notas de guitarra (tab) leer y reproducir online

                    e--------------------------------------|-------------------------------------
B--------------------------------------|-------------------------------------  
G--------------------------------------|-------------------5-5---------5-----
D---7-7-----7-7-9-9-10-10-9-9-7-7-9-9--|---5-5-----5-5-7-7-----7-7-5-5---5--- 
A-------7-7----------------------------|-------5-5---------------------------
E--------------------------------------|-------------------------------------

Spill det over to ganger

e---------------------------------------|------------------------------------
B---------------------------------------|------------------------------------
G---------------------------------------|------------------------------------
D---------------------------------------|-----------------5-5---------5------
A--7-7-----7-7-9-9-10-10-9-9-7-7-9-9----|--5-5----5-5-7-7-----7-7-5-5---5----
E------7-7------------------------------|------5-5---------------------------

e------------------------------------------------------------------
B------------8----------------------------------------8-----------------------
G-----7-9-10---10-9---------------------10-7---7-9-10---10-9---------
D---7---------------10----10----8-10-10------7---------------10--------
A----------------------10----10--------------------------------
E--------------------------------------------------------------

Spill det over fшr han synger

e---------------------------------|---------------------------------
B---------------------------------|---------------------------------
G---------------------------------|----------------------5-5--------
D------7-7-5-5-7-7------7-7-5-5-7-|--5-5-----5-5-7-7-8-8-----8-8-7--
A--5-5--------------5-5-----------|------5-5------------------------
E---------------------------------|---------------------------------

Spill det fшr streken 3 ganger

resten kan jeg ikke men det er bare е slе pе en og en streng mens du holder pе
et bеnd

Visit www.directTABS.com for more free tablature!                    

Comentarios para notas de guitarra (tab) — The Fear Of The Dark (var.46) (Iron Maiden)

Otras notas para The Fear Of The Dark (var.46) de Iron Maiden:

Las últimas notas vistas de Iron Maiden: