Iron Maiden - Aces High (var.5) Notas de bajo guitarra (tab) descargar gratis o reproducir online

Notas de bajo guitarra (tab) para Aces High (var.5) de Iron Maiden descargar gratis, leer o reproducir online. Info de archivo: .txt, 6.43 kb, 376 visualizaciones y 0 descargas.

Descargar notas de bajo guitarra (tab) "Aces High (var.5)" (Iron Maiden)

Iron Maiden Nombre de grupo
Aces High Nombre de canción
Notas de bajo guitarra (tabs) Tipo de nota
6.43 kb Tamaño de archivo
.TXT Tipo de archivo
376 visualizaciones
0 descargas
 
Eres un robot?

Aces High (var.5) notas de bajo guitarra (tab) leer y reproducir online

                    -------------------------------------------------------------------------------
			     Aces High - Iron Maiden
-------------------------------------------------------------------------------

Tabbed By: CanadianLoonie

Tuning: Standard

G|-------------------------------|-------------------------------------------|
D|--------------5-5-5-5-5-5-5-5-•|----------------------------------------4--|
A|-8--8-8-8-8-8-----------------•|5h7-7--7-7-5h7-7--7-7-5h7-7-7-7-7-5--(5)--5|
E|-------------------------------|-------------------------------------------|
                                  There goes the siren that warns of the air raid
                                  Move in to fire at the main stream of bombers

G|---------------------------------------------------------------------------|
D|-----------------------------------------4-(4)-----------------------------|
A|-5h7-7--7-7-5h7-7--7-7-5h7-7--7-7-5--(5)-------5-5h7-7--7-7-5h7-7--7-7-----|
E|---------------------------------------------------------------------------|
  Then comes the sound of the gun sending flak   Out for the scramble we've
  Let off a sharp burst then turn away           Roll over spin round and

G|---------------------------------------------------------------------------|
D|----------------------------------------------------------4---5h7-7-7--7-7-|
A|------------------4-------------------------5h7-7--7-7-5----5--------------|
E|-5h7-7--7-7-5-5-5---5-5h7-7--7-7-5h7-7--7-7--------------------------------|
  got to get airborne Got to get up for the coming attack       Jump in the
  come in behind them Move to their blind sides and come firing again Bandits at

G|---------------------------------4-----------------------------------------|
D|-5h7-7-7--7-7-5h7-7-7--7-7-5---5----5-5h7-7-7--7-7-5h7-7-7--7-7-5h7-7-7--7-|
A|---------------------------------------------------------------------------|
E|---------------------------------------------------------------------------|
  the cockpit and start up the engines Remove all the wheel block Theres no
  8 o'clock move in behind us           ten    mee   109s our of the sun

G|----------4-----------------------------------------------4----------------|
D|-7-5--(5)---5-5h7-7-7--7-7-5h7-7-7--7-7-5h7-7-7--7-7-5--5---5-5h7-7-7--7-7-|
A|---------------------------------------------------------------------------|
E|---------------------------------------------------------------------------|
  time to waste, gathering speed as we head down the runway  Got to get airborne
              ascending and turning our spitfires to face them  Heading straight

G|--------------------------------4--|---------------------------------------|
D|-5h7-7-7--7-7-5h7-7-7--7-7-5--5---5|•-------------7-----------7------------|
A|-----------------------------------|•-5h7--7--7-7---7--7--7-7---7--7--7--7-|
E|-----------------------------------|---------------------------------------|
  before it's too late                Runnin'       Scramblin'  Flyin'
  for them I press down my guns       Rollin'       Turnin'     Divin'
                                                       1st ending 
G|-5-4-----4-------------------------------------------5-4--------|----------|
D|-----7-5---7-5---------------5-----------7---------------7-5-7-•|----------|
A|---------------5-5h7--7--7-7---7--7--7-7---7--7--7-7-----------•|----------|
E|----------------------------------------------------------------|----------|
                   Rollin'     Turnin'     Divin      Going in again
                   Rollin'     Turnin'     Divin'
  2nd ending
G|-5-4-----------------------------------------------------------------------|
D|-----7-5-7-----------------------------------------------------------------|
A|------------7-7-7-7-7-7-7-7-7-7-5-3-3-3-3-3-5-5-5-5-5-7-7-7-7-7------------|
E|---------------------------------------------------------------------------|
              Run                   live      to        fly

G|---------------------------------------------------------------------------|
D|---------------------------------------------------------------------------|
A|-7-7-7-7-7-5-3-3-3-3-3-5-5-5-5-5-7-7-7-7-7-7-7-7-7-7-5-3-3-3-3-3-5-5-5-5-5-|
E|---------------------------------------------------------------------------|
               Fly       to        live                  Do        or

G|---------------------------------------------------------------------------|
D|---------------------------------------------------------------------------|
A|-7--7-7--7-(7)-7-7-7-7-5-3-3-3-3-3-5-5-5-5-5-10-10-10--10-10-10-10-10-10---|
E|---------------------------------------------------------------------------|
  die                      Won't     you?      Run

G|---------------------------------------------------------------------------|
D|----------------------(7)-(7)----------------------------------------------|
A|-10-8-6-6-6--6-6-6-8-8-8---8--8-10-10-10--10-10-10-(10)-10-10-10-10-8-6-6-6|
E|---------------------------------------------------------------------------|
        Live         to           fly                                   Fly

G|---------------------------------------------------------------------------|
D|-----------7------------------------------------------------------7--------|
A|-6-6-6-8-8---10-10-10--10-10-10-(10)-10-10-10-10-8-6-6-6--6-6-8-8---8-8----|
E|---------------------------------------------------------------------------|
         to    live                                  Aces

G|------------------------------------------------------|--------------------|
D|-------------------------------------------------7----|•----10-10----------|
A|-10-10-10-10-10-(10)-10-10-10-10-8-6-6-6-6-6-8-8-8-8-8|•-12--------12-12---|
E|------------------------------------------------------|--------------------|
  high

G|---------------------------------------------------------------------------|
D|-10-9----12-12----10-10--------10-9----------------10-10--------10-9----12-|
A|------12-------12--------12-12------12-10-12-12-12--------12-12------12----|
E|---------------------------------------------------------------------------|
                      1st Ending      2nd Ending
G|-----------------------------------|---------------------------------------|
D|-12----10-10--------10-9----------•|-10-9----------------------------------|
A|----12--------12-12------12-10-12-•|------12-10-12-------------------------|
E|-----------------------------------|---------------------------------------|

| /  slide up
| \  slide down
| h  hammer-on
| p  pull-off
| ~  vibrato
| +  harmonic
| x  Mute note                    

Comentarios para notas de bajo guitarra (tab) — Aces High (var.5) (Iron Maiden)

Otras notas para Aces High (var.5) de Iron Maiden:

Las últimas notas vistas de Iron Maiden: